0
SECTION
2
HEADER
9
$INSUNITS
70
4
9
$ACADVER
1
AC1014
9
$HANDSEED
5
FFFF
0
ENDSEC
0
SECTION
2
TABLES
0
TABLE
2
VPORT
5
8
100
AcDbSymbolTable
0
ENDTAB
0
TABLE
2
LTYPE
5
5
100
AcDbSymbolTable
0
LTYPE
5
14
100
AcDbSymbolTableRecord
100
AcDbLinetypeTableRecord
2
BYBLOCK
70
0
0
LTYPE
5
15
100
AcDbSymbolTableRecord
100
AcDbLinetypeTableRecord
2
BYLAYER
70
0
0
ENDTAB
0
TABLE
2
LAYER
5
2
100
AcDbSymbolTable
70
2
0
LAYER
5
50
100
AcDbSymbolTableRecord
100
AcDbLayerTableRecord
2
0
70
0
6
CONTINUOUS
0
ENDTAB
0
TABLE
2
STYLE
5
3
100
AcDbSymbolTable
70
1
0
STYLE
5
11
100
AcDbSymbolTableRecord
100
AcDbTextStyleTableRecord
2
STANDARD
70
0
0
ENDTAB
0
TABLE
2
VIEW
5
6
100
AcDbSymbolTable
70
0
0
ENDTAB
0
TABLE
2
UCS
5
7
100
AcDbSymbolTable
70
0
0
ENDTAB
0
TABLE
2
APPID
5
9
100
AcDbSymbolTable
70
2
0
APPID
5
12
100
AcDbSymbolTableRecord
100
AcDbRegAppTableRecord
2
ACAD
70
0
0
ENDTAB
0
TABLE
2
DIMSTYLE
5
A
100
AcDbSymbolTable
70
1
0
ENDTAB
0
TABLE
2
BLOCK_RECORD
5
1
100
AcDbSymbolTable
70
1
0
BLOCK_RECORD
5
1F
100
AcDbSymbolTableRecord
100
AcDbBlockTableRecord
2
*MODEL_SPACE
0
BLOCK_RECORD
5
1B
100
AcDbSymbolTableRecord
100
AcDbBlockTableRecord
2
*PAPER_SPACE
0
ENDTAB
0
ENDSEC
0
SECTION
2
BLOCKS
0
BLOCK
5
20
100
AcDbEntity
100
AcDbBlockBegin
2
*MODEL_SPACE
0
ENDBLK
5
21
100
AcDbEntity
100
AcDbBlockEnd
0
BLOCK
5
1C
100
AcDbEntity
100
AcDbBlockBegin
2
*PAPER_SPACE
0
ENDBLK
5
1D
100
AcDbEntity
100
AcDbBlockEnd
0
ENDSEC
0
SECTION
2
ENTITIES
0
LWPOLYLINE
5
100
100
AcDbEntity
8
0
100
AcDbPolyline
90
8
70
1
43
0.0
10
1016.9305164919585
20
-39.634216763976838
42
-2.4142135623731176
10
1019.9303747932352
20
-36.634075071946071
10
1032.4303747792928
20
-36.6334846745414
42
-2.4142135623731251
10
1035.4305164713232
20
-39.633342975818081
10
1035.4373178494243
20
-183.63334281519738
42
-2.414213562373134
10
1032.4374595481477
20
-186.63348450722825
10
1019.9374595620902
20
-186.63407490463283
42
-2.414213562373134
10
1016.9373178700595
20
-183.63421660335626
0
LWPOLYLINE
5
101
100
AcDbEntity
8
0
100
AcDbPolyline
90
8
70
1
43
0.0
10
1559.2223546596142
20
-36.621339208529612
42
-2.4142135623730372
10
1562.2223546596147
20
-39.621339208529598
10
1562.2223546596142
20
-183.62133920852997
42
-2.4142135623731948
10
1559.2223546596144
20
-186.62133920852963
10
1546.7223546596144
20
-186.62133920852963
42
-2.4142135623730341
10
1543.7223546596147
20
-183.62133920852961
10
1543.7223546596147
20
-39.621339208529271
42
-2.4142135623731904
10
1546.7223546596144
20
-36.621339208529612
0
LWPOLYLINE
5
102
100
AcDbEntity
8
0
100
AcDbPolyline
90
8
70
1
43
0.0
10
1562.2223546596142
20
116.37866079147034
10
1562.2223546596142
20
260.37866079147034
42
2.4142135623730341
10
1559.2223546596144
20
263.37866079147039
10
1546.7223546596144
20
263.37866079147039
42
2.4142135623731948
10
1543.7223546596147
20
260.37866079147034
10
1543.7223546596144
20
116.37866079147038
42
2.4142135623730234
10
1546.7223546596144
20
113.37866079147035
10
1559.2223546596144
20
113.37866079147034
42
2.4142135623731646
0
LWPOLYLINE
5
103
100
AcDbEntity
8
0
100
AcDbPolyline
90
8
70
1
43
0.0
10
1032.4162052415822
20
263.36651499083234
42
-2.4142135623730736
10
1035.4163469336131
20
260.36665668955561
10
1035.4231483117142
20
116.36665685017613
42
-2.4142135623731553
10
1032.4232900104375
20
113.36651515814543
10
1019.9232900243796
20
113.36592476074075
42
-2.414213562373134
10
1016.9231483323492
20
116.36578306201741
10
1016.9163469542484
20
260.36578290139698
42
-2.4142135623730949
10
1019.9162052555249
20
263.36592459342762
0
ARC
5
104
100
AcDbEntity
8
0
100
AcDbCircle
10
1077.1034611135365
20
63.378651343455729
30
0
40
324.99999999999989
210
1.1955594968549679e-33
220
1.540743955509789e-33
230
1
100
AcDbArc
50
90
51
180
0
LINE
5
105
100
AcDbEntity
8
0
100
AcDbLine
10
752.10346111353624
20
63.378651343455708
30
3.8855683647786468e-31
11
752.10346111353624
21
38.378660791470324
31
-2.2204460492503131e-15
0
ARC
5
106
100
AcDbEntity
8
0
100
AcDbCircle
10
1102.1034611135362
20
38.37866079147031
30
0
40
350
210
-6.3441315692866086e-18
220
1.7822319877203013e-33
230
1
100
AcDbArc
50
180
51
270
0
LINE
5
107
100
AcDbEntity
8
0
100
AcDbLine
10
1102.1034611135362
20
-311.62133920852943
30
5.3926038442842508e-31
11
1502.0747067798261
21
-311.62133920852943
31
-3.5201532821888051e-31
0
ARC
5
108
100
AcDbEntity
8
0
100
AcDbCircle
10
1502.0747067798261
20
38.37866079147026
30
0
40
349.99999999999972
210
-2.5139310265781572e-32
220
-1.0057580806253737e-33
230
1
100
AcDbArc
50
-90
51
89.999999931793653
0
LINE
5
109
100
AcDbEntity
8
0
100
AcDbLine
10
1502.0747071964749
20
388.37866079147
30
5.392603949026931e-31
11
1077.1034611135365
21
388.37865134345554
31
-5.0074178554068123e-31
0
ENDSEC
0
SECTION
2
OBJECTS
0
DICTIONARY
5
C
100
AcDbDictionary
3
ACAD_GROUP
350
D
3
ACAD_MLINESTYLE
350
17
0
DICTIONARY
5
D
100
AcDbDictionary
0
DICTIONARY
5
1A
330
C
100
AcDbDictionary
0
DICTIONARY
5
17
100
AcDbDictionary
0
ENDSEC
0
EOF
